Don't hold me down
Title:
Don't hold me down
Artist:
Genre:
Other
Instrument:
guitar
Notation:
Tablature
Tuning:
Eb-Ab-Db-Gb-Bb-Eb
Capo position:
none
Tabbed by:
Karlos de Klerk
Posted by:
Views:
Loading...
Tags:
Share

Comments by visitors [ Add ]
skumer - 17.07.2011 16:59 
Heej!
Het intro lickje gaat volgens mij zo.

E-|---------------|---0--------
B-|---------------|---1--------
G-|---------------|---0--------
D-|-----------0---|---2--------
A-|-----0-2-3---3-|---3--------
E-|---3-----------|---x--------


Spelen voor elk C akkoord

Greetzzz Robin
gertjan79 - 13.10.2013 19:21 
Hi : )

Loopje is naar mijn mening iets anders voor de C(add9):

E-|---------------|---0--------
B-|---------------|---3--------
G-|---------------|---0--------
D-|---------------|---2--------
A-|---------0-2---|---3--------
E-|---0-2-3-------|---x--------

En dan vervolgens deze variaties op de standaard akkoorden zoals in de tab staan: Cadd9 | E7sus4 | G6 | Dsus2/F#

Cadd9 x32030
E7sus4 020230
G6 320030
Dsus2/F# 2x0230

Groeten Gertjan
  Login to place your comments.
LOGIN | Registeer

Username:


Password:

Remember me




© 2003-2014 TABSRUS.NL  •  all rights reserved  •  contact  •  advertise  •  MUSI©OPY