Back to website
 
Title: Welkom Thuis
Artist: Blof
Album: Boven
Genre: dutch songs
Instrument: Guitar
Tuning: E-A-D-G-B-E
Tabbed by: Sander Filius
Posted on: http://www.tabsrus.nl
Share:
Tekst         : Peter Slager
Muziek        : Bas Kennis


 1 INTRO)
 E-----|----5--------------------------------|--
 B-----|----5----------------------8---------|--
 G-----|----7------------------------7-------|--
 D-----|----7--------------------5-----5-5H7-|--
 A-----|-5--5--------------------------------|--
 E-----|-------------------------------------|--
                     4x

 E-----|----5--------------------------------|--
 B-----|----5----------------------8---------|--
 G-----|----7------------------------7-------|--
 D-----|----7--------------------5-----5-5H7-|--
 A-----|-5--5--------------------------------|--
 E-----|-------------------------------------|--
        "Welkom in ons midden."
        "Welkom in dit huis."
"Nu je eindelijk weer hier bent."

 E---------------------------------------------
 B---------------------------------------------
 G----------------------7-7P5~~----------------
 D------------------5H7-7-7P5~~----------------
 A--5------------------------------------------
 E---------------------------------------------
   "Welkom jongen,               welkom thuis."


 2 COUPLET A)
 E-|-------------------------------------------------------------------------------------|-
 B-|-----------------------------6---6---------------------------------10-10----10-10----|-
 G-|-7-7--7P5~~-------X-X--5H7-5---5---7~~--------7-7--7P5-----------7-------7~-------7~-|-
 D-|-7-7--7P5~~-------X-X--5H7---------7~~--------7-7--7P5-------------------------------|-
 A-|-------------------------------------------------------------------------------------|-
 E-|-------------------------------------------------------------------------------------|- 
                                         2x

 E---------------------------------------------------------------------------------------
 B------------------------------6---6---------------------------------10-10----10-10-----
 G--7-7--7P5~~-------X-X--5H7-5---5---7~~--------7-7--7P5-----------7-------7~-------7~--
 D--7-7--7P5~~-------X-X--5H7---------7~~--------7-7--7P5--------------------------------
 A---------------------------------------------------------------------------------------
 E--------------------------------------------------------------------------------------- 
 "We waren ongerust.                          We hebben lang gewacht."

 E----------------------------------------------------------------------------
 B------------------------------6---6-----------------------------------------
 G--7-7--7P5~~-------X-X--5H7-5---5---7~~------------7~~--7~~--7~~--7~~--7~~--
 D--7-7--7P5~~-------X-X--5H7---------7~~------------7~~--7~~--7~~--7~~--7~~--
 A----------------------------------------------------------------------------
 E----------------------------------------------------------------------------
 "We hadden nooit gedacht                     dat je ons ooit kon verlaten."

 E-----------------------------------------------------------
 B-----------------------------------------------------------
 G--7~~--7~~---5----5----5----5----x-------------------------
 D--7~~--7~~---5----5----5----5----x-------6~----6~----6~----
 A-------------3-3--3-3--3-3--3-3--x--0-2-----2-----2-----2--
 E-----------------------------------------------------------
 "Maar kom aan tafel en vertel ons je verhalen."

         Am            G5     Dsus2
 E---------------------3---------------0---------------------
 B-------1-------------3-----------3-----3-----3-------------
 G-------2-------------0---------2---2-----0H2---------------
 D-------2-------------0-------0-----------------------------
 A-----0---------------2-------------------------------------
 E---------------3--X--3-------------------------------------
 "Was je handen als je wilt."


 3 REFREIN)
 E------------------------------------------------------------------------------
 B-------------------------------6---6------------------------------------------
 G---7-7--7P5~~-------X-X--5H7-5---5---7~~--------7-7--7P5-------------7P5-7~~--
 D---7-7--7P5~~-------X-X--5H7---------7~~--------7-7--7P5---------5H7-7P5-7~~--
 A------------------------------------------------------------------------------
 E------------------------------------------------------------------------------ 
 "Welkom in ons midden.                        Welkom in dit huis."

 E-----------------------------------------------------
 B----------------------------------10-10----10-10-----
 G---7-7--7P5---------------------7-------7~-------7~--
 D---7-7--7P5------------------------------------------
 A-----------------------------------------------------
 E----------------------------------------------------- 
 "Nu je eindelijk weer hier bent."               

 E-----------------------------------------------------
 B-----------------------------------------------------
 G---7-7--7P5~~------------7~~-------------------------
 D---7-7--7P5~~------------7~~-------------------------
 A-----------------------------------------------------
 E----------------------------------------------------- 
 "Welkom jongen, (welkom). Welkom Thuis!"


 4 COUPLET B)
 E------------------------------------------------------------------------------
 B-------------------------------6---6------------------------------------------
 G---7-7--7P5~~-------X-X--5H7-5---5---7~~--------7-7--7P5-------------7P5-7~~--
 D---7-7--7P5~~-------X-X--5H7---------7~~--------7-7--7P5---------5H7-7P5-7~~--
 A------------------------------------------------------------------------------
 E------------------------------------------------------------------------------ 

 E---------------------------------------------------------------------------------------
 B------------------------------6---6---------------------------------10-10----10-10-----
 G--7-7--7P5~~-------X-X--5H7-5---5---7~~--------7-7--7P5-----------7-------7~-------7~--
 D--7-7--7P5~~-------X-X--5H7---------7~~--------7-7--7P5--------------------------------
 A---------------------------------------------------------------------------------------
 E--------------------------------------------------------------------------------------- 
 "We sliepen jaren slecht.                    We dwaalden door de nacht."

 E----------------------------------------------------------------------------
 B------------------------------6---6-----------------------------------------
 G--7-7--7P5~~-------X-X--5H7-5---5---7~~------------7~~--7~~--7~~--7~~--7~~--
 D--7-7--7P5~~-------X-X--5H7---------7~~------------7~~--7~~--7~~--7~~--7~~--
 A----------------------------------------------------------------------------
 E----------------------------------------------------------------------------
 "We hadden niet de kracht                    om jou voor altijd los te laten."

 E-----------------------------------------------------------
 B-----------------------------------------------------------
 G--7~~--7~~---5----5----5----5----x-------------------------
 D--7~~--7~~---5----5----5----5----x-------6~----6~----6~----
 A-------------3-3--3-3--3-3--3-3--x--0-2-----2-----2-----2--
 E-----------------------------------------------------------
 "Maar kom aan tafel en vertel ons je verhalen."

         Am            G5     Dsus2
 E---------------------3---------------0---------------------
 B-------1-------------3-----------3-----3-----3-------------
 G-------2-------------0---------2---2-----0H2---------------
 D-------2-------------0-------0-----------------------------
 A-----0---------------2-------------------------------------
 E---------------3--X--3-------------------------------------
 "Eet ons brood en drink zoveel je kan."


 5 BRUG)
 E------------------------------------------
 B--8-----------------------------5---------
 G--7-------------------------7-----7---7---
 D--5-----------------------7---7-----7-----
 A--5---------------------5-----------------
 E------------------------------------------
      "Niemand ging ooit weg."
      "Zonder iets van afscheid."

         F7
 E--------------------------------------------------------------
 B--------------------------------------------------------------
 G--------------------------------------------------------------
 D-------3------------5-----------------8-----------------------
 A-------3------------5-----------------8-----------------------
 E-------1------------3-----------------6-----------------------
 "En wij dachten dat de noorderzon voor ons niet meer bestond."

 E----------------------------------
 B-------10~~--10~~--10~~--10~~-----
 G--9b10----9~~---9~~---9~~---9~~---
 D----------------------------------
 A----------------------------------
 E----------------------------------
 "Welkom jongen, welkom thuis!"

 E---------------------------------------------------------------------------------------
 B------------------------------6---6---------------------------------10-10----10-10-----
 G--7-7--7P5~~-------X-X--5H7-5---5---7~~--------7-7--7P5-----------7-------7~-------7~--
 D--7-7--7P5~~-------X-X--5H7---------7~~--------7-7--7P5--------------------------------
 A---------------------------------------------------------------------------------------
 E--------------------------------------------------------------------------------------- 


 6 SOLO) 
 E----------------------------------------------------------------
 B------------------------6-6---------6H8--8b10r(8)P6--8b10--8~~--
 G------------------------5-5--7~~----5H7--7b9-r(7)P5--7b9---7~~--
 D-------------------5--------------------------------------------
 A--3--3H5-5/7---5H7---7------------------------------------------
 E----------------------------------------------------------------

 E------------------------------------------------10-----------12~---------13~-
 B------6\5---------------6-6---------8b9r8--13b15--r(13)/15b17---r15/16b18----
 G--5H7-----5H7------5----5-5--------------------------------------------------
 D---------------5H7---7-------7~~---------------------------------------------
 A-----------------------------------------------------------------------------
 E-----------------------------------------------------------------------------

 E-----------15~---------17~-----17~~--
 B-(16)/18b20---r18/20b22---20b22------
 G-------------------------------------
 D-------------------------------------
 A-------------------------------------
 E-------------------------------------

 E------------------------------------------------------------------------------
 B-------------------------------6---6------------------------------------------
 G---7-7--7P5~~-------X-X--5H7-5---5---7~~--------7-7--7P5-------------7P5-7~~--
 D---7-7--7P5~~-------X-X--5H7---------7~~--------7-7--7P5---------5H7-7P5-7~~--
 A------------------------------------------------------------------------------
 E------------------------------------------------------------------------------ 


 7 COUPLET C)
 E-----------------------------------------------------------
 B-----------------------------------------------------------
 G-------------5----5----5----5----x-------------------------
 D-------------5----5----5----5----x-------6~----6~----6~----
 A-------------3-3--3-3--3-3--3-3--x--0-2-----2-----2-----2--
 E-----------------------------------------------------------
      "Kom aan tafel en vertel ons je verhalen."

         Am            G5     Dsus2
 E---------------------3---------------0---------------------
 B-------1-------------3-----------3-----3-----3-------------
 G-------2-------------0---------2---2-----0H2---------------
 D-------2-------------0-------0-----------------------------
 A-----0---------------2-------------------------------------
 E---------------3--X--3-------------------------------------
 "Spaar ons niet voor wat je hebt gezien."


TEKST:

Welkom in ons midden
Welkom in dit huis
Nu je eindelijk weer hier bent
Welkom, jongen
Welkom thuis

We waren ongerust
We hebben lang gewacht
We hadden nooit gedacht
Dat je ons ooit kon verlaten
Kom aan tafel en vertel ons je verhalen
Was je handen als je wilt

Welkom in ons midden
Welkom in dit huis
Nu je eindelijk weer hier bent
Welkom, jongen
Welkom thuis

We sliepen jaren slecht
We dwaalden door de nacht
We hadden niet de kracht
Om je voor altijd los te laten
Kom aan tafel en vertel ons je verhalen
Eet ons brood en drink zoveel je kan

Welkom in ons midden
Welkom in dit huis
Nu je eindelijk weer hier bent
Welkom, jongen
Welkom thuis

Niemand ging ooit weg
Zonder iets als afscheid
We dachten dat de noorderzon
Voor ons niet echt bestond
Maar welkom, jongen
Welkom thuis

Kom aan tafel en vertel ons je verhalen
Spaar ons niet voor wat je hebt gezien

Welkom in ons midden
Welkom in dit huis
Nu je eindelijk weer terug bent
Welkom, jongen
Welkom thuis


Welkom Thuis / Blof / Boven
Downloaded from http://www.tabsrus.nl